FPG - Думай обомне лучше

Рейтинг: 0

Исполнитель: FPG

Название песни: Думай обомне лучше

Продолжительность mp3: 02:53

Дата добавления: 2014-07-21

Текст просмотрен: 401




Скачать


Другие песни исполнителя FPG



Текст песни:

F.P.G. - Думай, аккорды

Подбор прислал(а): Хорват (отправить письмо)
Вступление

Em C Hm C D Em
e---------3--2---------------------------------------------------------------------------------
H----------------3---0------------3--1---------------------0---------------------7h-8p7h8------
G-----0-----------------------0------------------------0-------0---------5---7---9-------------
D--2------------------------------------------------4--------------4-----5---7---9-------------
A--------------------------3---------------------2-----------------------3---5---7-------------
E----------------------------------------------------------------------------------------------

Em C Hm (флажолеты)
---------3--2----------------------------------------------------------7-----------------
----------------3---0------------3--1---------------------0----------------7-------------
-----0-----------------------0------------------------0-------0----------------5---------
--2------------------------------------------------4--------------4------------------------
--------------------------3---------------------2------------------------------------------
-------------------------------------------------------------------------------------------

Em
Да! я знаю, каким я бываю
C
Жестоким, как я слезиться глаза
Hm
Заставляю, как я плюю в души тех, кто мне
C D Em
Дорог - тех, кому меня так не хватает...

Как я порой беспощаден,
Как мое сердце к чужим мольбам глухо.
Я ни на что не надеюсь, - я знаю
Hm Em
Как было бы глупо... думать обо мне лучше.

Иногда я бываю таким - самому
Тошно: отвратительно злым,
Высокомерным, я любое высокое чувство
A G Em
Опошлю, я любому подонку послужил бы примером.

Как можно быть таким гадом,
Хуже найти невозможно,
Видя в зеркале рожу нахала
A Hm
Я не понимаю как вообще можно думать обо мне лучше?



Em C


Но ты думай обо мне лучше.


G A G


Пусть это будет неправдой


Em C


Я буду знать, что ты думаешь так


Hm


И, может быть, станут действительно лучше

Проигрыш: Em C Hm Hm > 2 раза

Em
Иногда я бываю особо циничным
C
Готовым на все в достижении цели
Hm
Улыбаясь, бесчувственно и методично
Hm
Убивать того, кого вижу в прицеле

Но, я всегда буду честен
Отрава правды бисквита лжи – лучше
Если мы будем вместе
Нам никогда не будет скучно... это я тебе обещаю!


Em C

Я порву свою душу, чтоб укрыть твои плечи,

Am Hm

Вывернув наизнанку чтоб тебе было мягче

Я сделаю все, все чтоб тебе было легче

Если увижу вдруг что ты плачешь...


Понесу на руках, закрывая от ветра,

Я согрею тебя огнедышащим телом

Не задумываясь, я взгляну в глаза смерти

Если ты захочешь, чтоб я это сделал...



Припев > 2 раза



Em


Думай обо мне!


Видео: F.P.G [dr.House] - Думай Обо Мне Лучше



Фотогалерея:

Думай обомне лучше FPG

Комментарии (0)